  0
SECTION
  2
HEADER
  9
$ACADVER
  1
AC1009
  9
$INSBASE
 10
53.37449658774965
 20
123.6304347826091
 30
0.0
  9
$EXTMIN
 10
53.32512690115438
 20
123.6304347826091
 30
0.0
  9
$EXTMAX
 10
62.42386627434862
 20
135.3375415637954
 30
0.0
  9
$LIMMIN
 10
0.0
 20
0.0
  9
$LIMMAX
 10
420.0
 20
297.0
  9
$ORTHOMODE
 70
     0
  9
$REGENMODE
 70
     0
  9
$FILLMODE
 70
     1
  9
$QTEXTMODE
 70
     0
  9
$MIRRTEXT
 70
     0
  9
$DRAGMODE
 70
     2
  9
$LTSCALE
 40
1.0
  9
$OSMODE
 70
     0
  9
$ATTMODE
 70
     1
  9
$TEXTSIZE
 40
3.5
  9
$TRACEWID
 40
0.1
  9
$TEXTSTYLE
  7
STANDARD
  9
$CLAYER
  8
0
  9
$CELTYPE
  6
BYLAYER
  9
$CECOLOR
 62
   256
  9
$DIMSCALE
 40
1.0
  9
$DIMASZ
 40
2.0
  9
$DIMEXO
 40
1.0
  9
$DIMDLI
 40
8.0
  9
$DIMRND
 40
0.0
  9
$DIMDLE
 40
0.0
  9
$DIMEXE
 40
2.0
  9
$DIMTP
 40
0.1
  9
$DIMTM
 40
0.1
  9
$DIMTXT
 40
3.5
  9
$DIMCEN
 40
2.0
  9
$DIMTSZ
 40
0.0
  9
$DIMTOL
 70
     0
  9
$DIMLIM
 70
     0
  9
$DIMTIH
 70
     0
  9
$DIMTOH
 70
     0
  9
$DIMSE1
 70
     0
  9
$DIMSE2
 70
     0
  9
$DIMTAD
 70
     1
  9
$DIMZIN
 70
     0
  9
$DIMBLK
  1

  9
$DIMASO
 70
     1
  9
$DIMSHO
 70
     0
  9
$DIMPOST
  1

  9
$DIMAPOST
  1

  9
$DIMALT
 70
     0
  9
$DIMALTD
 70
     2
  9
$DIMALTF
 40
25.39999999999999
  9
$DIMLFAC
 40
1.0
  9
$DIMTOFL
 70
     0
  9
$DIMTVP
 40
0.0
  9
$DIMTIX
 70
     0
  9
$DIMSOXD
 70
     0
  9
$DIMSAH
 70
     0
  9
$DIMBLK1
  1

  9
$DIMBLK2
  1

  9
$DIMSTYLE
  2
*UNNAMED
  9
$DIMCLRD
 70
     0
  9
$DIMCLRE
 70
     0
  9
$DIMCLRT
 70
     0
  9
$DIMTFAC
 40
1.0
  9
$DIMGAP
 40
0.09
  9
$LUNITS
 70
     2
  9
$LUPREC
 70
     3
  9
$SKETCHINC
 40
0.1
  9
$FILLETRAD
 40
20.0
  9
$AUNITS
 70
     0
  9
$AUPREC
 70
     1
  9
$MENU
  1

  9
$ELEVATION
 40
0.0
  9
$PELEVATION
 40
0.0
  9
$THICKNESS
 40
0.0
  9
$LIMCHECK
 70
     0
  9
$BLIPMODE
 70
     0
  9
$CHAMFERA
 40
0.0
  9
$CHAMFERB
 40
0.0
  9
$SKPOLY
 70
     1
  9
$TDCREATE
 40
2448537.547227546
  9
$TDUPDATE
 40
2449393.453523032
  9
$TDINDWG
 40
0.0010991898
  9
$TDUSRTIMER
 40
0.0010991898
  9
$USRTIMER
 70
     1
  9
$ANGBASE
 50
0.0
  9
$ANGDIR
 70
     0
  9
$PDMODE
 70
     0
  9
$PDSIZE
 40
0.0
  9
$PLINEWID
 40
0.0
  9
$COORDS
 70
     2
  9
$SPLFRAME
 70
     0
  9
$SPLINETYPE
 70
     6
  9
$SPLINESEGS
 70
     8
  9
$ATTDIA
 70
     1
  9
$ATTREQ
 70
     1
  9
$HANDLING
 70
     0
  9
$HANDSEED
  5
36
  9
$SURFTAB1
 70
     6
  9
$SURFTAB2
 70
     6
  9
$SURFTYPE
 70
     6
  9
$SURFU
 70
     6
  9
$SURFV
 70
     6
  9
$UCSNAME
  2

  9
$UCSORG
 10
0.0
 20
0.0
 30
0.0
  9
$UCSXDIR
 10
1.0
 20
0.0
 30
0.0
  9
$UCSYDIR
 10
0.0
 20
1.0
 30
0.0
  9
$PUCSNAME
  2

  9
$PUCSORG
 10
0.0
 20
0.0
 30
0.0
  9
$PUCSXDIR
 10
1.0
 20
0.0
 30
0.0
  9
$PUCSYDIR
 10
0.0
 20
1.0
 30
0.0
  9
$USERI1
 70
     0
  9
$USERI2
 70
     3
  9
$USERI3
 70
    15
  9
$USERI4
 70
     0
  9
$USERI5
 70
     0
  9
$USERR1
 40
1.0
  9
$USERR2
 40
1.0
  9
$USERR3
 40
0.0
  9
$USERR4
 40
1.0
  9
$USERR5
 40
0.0
  9
$WORLDVIEW
 70
     1
  9
$SHADEDGE
 70
     3
  9
$SHADEDIF
 70
    70
  9
$TILEMODE
 70
     1
  9
$MAXACTVP
 70
    16
  9
$PINSBASE
 10
0.0
 20
0.0
 30
0.0
  9
$PLIMCHECK
 70
     0
  9
$PEXTMIN
 10
1.000000000000000E+20
 20
1.000000000000000E+20
 30
1.000000000000000E+20
  9
$PEXTMAX
 10
-1.000000000000000E+20
 20
-1.000000000000000E+20
 30
-1.000000000000000E+20
  9
$PLIMMIN
 10
0.0
 20
0.0
  9
$PLIMMAX
 10
12.0
 20
9.0
  9
$UNITMODE
 70
     0
  9
$VISRETAIN
 70
     0
  9
$PLINEGEN
 70
     0
  9
$PSLTSCALE
 70
     0
  9
$TREEDEPTH
 70
  3020
  9
$DWGCODEPAGE
  3
undefined
  0
ENDSEC
  0
SECTION
  2
TABLES
  0
TABLE
  2
VPORT
 70
     2
  0
VPORT
  2
*ACTIVE
 70
     0
 10
0.0
 20
0.0
 11
1.0
 21
1.0
 12
61.31365321425537
 22
129.8539262059292
 13
0.0
 23
0.0
 14
1.0
 24
1.0
 15
10.0
 25
10.0
 16
0.0
 26
0.0
 36
1.0
 17
0.0
 27
0.0
 37
0.0
 40
12.4469828466403
 41
1.275675675675675
 42
50.0
 43
0.0
 44
0.0
 50
0.0
 51
0.0
 71
     0
 72
   100
 73
     1
 74
     0
 75
     0
 76
     0
 77
     0
 78
     0
  0
ENDTAB
  0
TABLE
  2
LTYPE
 70
     1
  0
LTYPE
  2
AUSGEZOGEN
 70
    64
  3
Solid line
 72
    65
 73
     0
 40
0.0
  0
ENDTAB
  0
TABLE
  2
LAYER
 70
     2
  0
LAYER
  2
0
 70
     0
 62
     7
  6
AUSGEZOGEN
  0
LAYER
  2
ITEM_50
 70
    64
 62
     7
  6
AUSGEZOGEN
  0
ENDTAB
  0
TABLE
  2
STYLE
 70
     1
  0
STYLE
  2
STANDARD
 70
     0
 40
0.0
 41
1.0
 50
0.0
 71
     0
 42
3.5
  3
iso
  4

  0
ENDTAB
  0
TABLE
  2
VIEW
 70
     0
  0
ENDTAB
  0
TABLE
  2
UCS
 70
     0
  0
ENDTAB
  0
TABLE
  2
APPID
 70
     1
  0
APPID
  2
ACAD
 70
    64
  0
ENDTAB
  0
TABLE
  2
DIMSTYLE
 70
     0
  0
ENDTAB
  0
ENDSEC
  0
SECTION
  2
BLOCKS
  0
ENDSEC
  0
SECTION
  2
ENTITIES
  0
ARC
  8
ITEM_50
 10
61.37449658775016
 20
124.130434782609
 30
0.0
 40
0.4999999999998863
 50
180.0
 51
0.0
  0
LINE
  8
ITEM_50
 10
60.87449658775027
 20
133.9304347826087
 30
0.0
 11
60.87449658775027
 21
124.1304335920071
 31
0.0
  0
LINE
  8
ITEM_50
 10
61.87449658775005
 20
124.130434782609
 30
0.0
 11
61.8744965877488
 21
126.5624855901773
 31
0.0
  0
ARC
  8
ITEM_50
 10
60.67449658775023
 20
133.9304347826087
 30
0.0
 40
0.2
 50
0.0
 51
90.0
  0
ARC
  8
ITEM_50
 10
55.07449658775021
 20
133.9304347826087
 30
0.0
 40
0.2
 50
90.0
 51
180.0
  0
ARC
  8
ITEM_50
 10
54.37449658775039
 20
124.130434782609
 30
0.0
 40
0.4999999999998863
 50
180.0
 51
0.0
  0
ARC
  8
ITEM_50
 10
60.87449658775334
 20
130.0945363977387
 30
0.0
 40
1.5
 50
359.9999999999988
 51
30.00000000000006
  0
ARC
  8
ITEM_50
 10
60.87449658775016
 20
128.0983839750414
 30
0.0
 40
1.5
 50
330.0000000000798
 51
359.9999999999994
  0
ARC
  8
ITEM_50
 10
54.87449658774965
 20
130.0945363977464
 30
0.0
 40
1.5
 50
150.0000000000009
 51
179.9999999999994
  0
ARC
  8
ITEM_50
 10
54.87449658775016
 20
128.0983839750426
 30
0.0
 40
1.5
 50
180.0
 51
209.9999999999988
  0
ARC
  8
ITEM_50
 10
62.87449658775022
 20
126.5624855901783
 30
0.0
 40
1.0
 50
150.0000000000817
 51
180.0
  0
ARC
  8
ITEM_50
 10
62.87449658774959
 20
131.6304347826074
 30
0.0
 40
1.0
 50
179.9999999999274
 51
210.000000000001
  0
ARC
  8
ITEM_50
 10
60.87449658774897
 20
134.1304347826086
 30
0.0
 40
1.0
 50
359.9999999999277
 51
90.0
  0
ARC
  8
ITEM_50
 10
54.87449658775022
 20
134.1304347826086
 30
0.0
 40
1.0
 50
90.0
 51
179.9999999999994
  0
ARC
  8
ITEM_50
 10
52.8744965877517
 20
126.5624855901778
 30
0.0
 40
1.0
 50
359.9999999999715
 51
29.99999999999889
  0
ARC
  8
ITEM_50
 10
52.87449658774959
 20
131.6304347826086
 30
0.0
 40
1.0
 50
330.0000000000002
 51
0.0
  0
LINE
  8
ITEM_50
 10
54.87449658775022
 20
133.9304347826087
 30
0.0
 11
54.87449658775022
 21
124.1304335920071
 31
0.0
  0
LINE
  8
ITEM_50
 10
60.67449658775023
 20
134.1304347826086
 30
0.0
 11
55.07449658775021
 21
134.1304347826086
 31
0.0
  0
LINE
  8
ITEM_50
 10
62.17353469342787
 20
127.3483839750433
 30
0.0
 11
62.00847118396506
 21
127.0624855901771
 31
0.0
  0
LINE
  8
ITEM_50
 10
62.37449658775027
 20
130.0945419143087
 30
0.0
 11
62.37449658775016
 21
128.0983839750414
 31
0.0
  0
LINE
  8
ITEM_50
 10
62.00847118396517
 20
131.1304347826074
 30
0.0
 11
62.17353469343003
 21
130.8445363977387
 31
0.0
  0
LINE
  8
ITEM_50
 10
61.87449658774897
 20
134.1304347826074
 30
0.0
 11
61.87449658774578
 21
131.6304347826086
 31
0.0
  0
LINE
  8
ITEM_50
 10
54.87449658775022
 20
135.1304347826086
 30
0.0
 11
60.87449658774897
 21
135.1304347826086
 31
0.0
  0
LINE
  8
ITEM_50
 10
53.87449658774959
 20
131.6304347826086
 30
0.0
 11
53.87449658775022
 21
134.1304347826086
 31
0.0
  0
LINE
  8
ITEM_50
 10
53.57545848207302
 20
130.8445363977463
 30
0.0
 11
53.74052199153407
 21
131.1304347826086
 31
0.0
  0
LINE
  8
ITEM_50
 10
53.37449658775016
 20
128.0983839750426
 30
0.0
 11
53.37449658774965
 21
130.0945363977464
 31
0.0
  0
LINE
  8
ITEM_50
 10
53.74052199153617
 20
127.0624855901778
 30
0.0
 11
53.57545848207347
 21
127.3483839750426
 31
0.0
  0
LINE
  8
ITEM_50
 10
53.8744965877505
 20
124.130434782609
 30
0.0
 11
53.8744965877517
 21
126.5624855901773
 31
0.0
  0
ENDSEC
  0
EOF
